  0
SECTION
  2
HEADER
  9
$ACADVER
  1
AC1015
  9
$ACADMAINTVER
 70
     6
  9
$DWGCODEPAGE
  3
ANSI_1254
  9
$INSBASE
 10
0.0
 20
0.0
 30
0.0
  9
$EXTMIN
 10
0.0
 20
0.0
 30
0.0
  9
$EXTMAX
 10
279.4
 20
215.9
 30
0.0
  9
$LIMMIN
 10
0.0
 20
0.0
  9
$LIMMAX
 10
279.4
 20
215.9
  9
$ORTHOMODE
 70
     0
  9
$REGENMODE
 70
     1
  9
$FILLMODE
 70
     1
  9
$QTEXTMODE
 70
     0
  9
$MIRRTEXT
 70
     1
  9
$LTSCALE
 40
1.0
  9
$ATTMODE
 70
     1
  9
$TEXTSIZE
 40
3.5
  9
$TRACEWID
 40
1.0
  9
$TEXTSTYLE
  7
Standard
  9
$CLAYER
  8
0
  9
$CELTYPE
  6
ByLayer
  9
$CECOLOR
 62
   256
  9
$CELTSCALE
 40
1.0
  9
$DISPSILH
 70
     0
  9
$DIMSCALE
 40
1.0
  9
$DIMASZ
 40
3.5
  9
$DIMEXO
 40
1.0
  9
$DIMDLI
 40
3.75
  9
$DIMRND
 40
0.0
  9
$DIMDLE
 40
0.0
  9
$DIMEXE
 40
1.0
  9
$DIMTP
 40
0.0
  9
$DIMTM
 40
0.0
  9
$DIMTXT
 40
3.5
  9
$DIMCEN
 40
2.5
  9
$DIMTSZ
 40
0.0
  9
$DIMTOL
 70
     0
  9
$DIMLIM
 70
     0
  9
$DIMTIH
 70
     1
  9
$DIMTOH
 70
     1
  9
$DIMSE1
 70
     0
  9
$DIMSE2
 70
     0
  9
$DIMTAD
 70
     1
  9
$DIMZIN
 70
     0
  9
$DIMBLK
  1

  9
$DIMASO
 70
     1
  9
$DIMSHO
 70
     1
  9
$DIMPOST
  1

  9
$DIMAPOST
  1

  9
$DIMALT
 70
     0
  9
$DIMALTD
 70
     3
  9
$DIMALTF
 40
0.0393700787
  9
$DIMLFAC
 40
1.0
  9
$DIMTOFL
 70
     1
  9
$DIMTVP
 40
0.0
  9
$DIMTIX
 70
     0
  9
$DIMSOXD
 70
     0
  9
$DIMSAH
 70
     0
  9
$DIMBLK1
  1

  9
$DIMBLK2
  1

  9
$DIMSTYLE
  2
ISO-25
  9
$DIMCLRD
 70
     0
  9
$DIMCLRE
 70
     0
  9
$DIMCLRT
 70
     0
  9
$DIMTFAC
 40
1.0
  9
$DIMGAP
 40
1.524
  9
$DIMJUST
 70
     0
  9
$DIMSD1
 70
     0
  9
$DIMSD2
 70
     0
  9
$DIMTOLJ
 70
     0
  9
$DIMTZIN
 70
     0
  9
$DIMALTZ
 70
     0
  9
$DIMALTTZ
 70
     0
  9
$DIMUPT
 70
     0
  9
$DIMDEC
 70
     2
  9
$DIMTDEC
 70
     2
  9
$DIMALTU
 70
     2
  9
$DIMALTTD
 70
     3
  9
$DIMTXSTY
  7
Standard
  9
$DIMAUNIT
 70
     0
  9
$DIMADEC
 70
     2
  9
$DIMALTRND
 40
0.0
  9
$DIMAZIN
 70
     0
  9
$DIMDSEP
 70
    44
  9
$DIMATFIT
 70
     3
  9
$DIMFRAC
 70
     0
  9
$DIMLDRBLK
  1

  9
$DIMLUNIT
 70
     2
  9
$DIMLWD
 70
    -2
  9
$DIMLWE
 70
    -2
  9
$DIMTMOVE
 70
     0
  9
$LUNITS
 70
     2
  9
$LUPREC
 70
     2
  9
$SKETCHINC
 40
1.0
  9
$FILLETRAD
 40
10.0
  9
$AUNITS
 70
     0
  9
$AUPREC
 70
     2
  9
$MENU
  1
.
  9
$ELEVATION
 40
0.0
  9
$PELEVATION
 40
0.0
  9
$THICKNESS
 40
0.0
  9
$LIMCHECK
 70
     0
  9
$CHAMFERA
 40
0.0
  9
$CHAMFERB
 40
0.0
  9
$CHAMFERC
 40
0.0
  9
$CHAMFERD
 40
0.0
  9
$SKPOLY
 70
     0
  9
$TDCREATE
 40
2460731.656050104
  9
$TDUCREATE
 40
2460731.531050104
  9
$TDUPDATE
 40
2460731.656050174
  9
$TDUUPDATE
 40
2460731.531050174
  9
$TDINDWG
 40
0.0000000116
  9
$TDUSRTIMER
 40
0.0000000116
  9
$USRTIMER
 70
     1
  9
$ANGBASE
 50
0.0
  9
$ANGDIR
 70
     0
  9
$PDMODE
 70
     0
  9
$PDSIZE
 40
-1.0
  9
$PLINEWID
 40
0.0
  9
$SPLFRAME
 70
     0
  9
$SPLINETYPE
 70
     6
  9
$SPLINESEGS
 70
     8
  9
$HANDSEED
  5
F2
  9
$SURFTAB1
 70
     6
  9
$SURFTAB2
 70
     6
  9
$SURFTYPE
 70
     6
  9
$SURFU
 70
     6
  9
$SURFV
 70
     6
  9
$UCSBASE
  2

  9
$UCSNAME
  2

  9
$UCSORG
 10
0.0
 20
0.0
 30
0.0
  9
$UCSXDIR
 10
1.0
 20
0.0
 30
0.0
  9
$UCSYDIR
 10
0.0
 20
1.0
 30
0.0
  9
$UCSORTHOREF
  2

  9
$UCSORTHOVIEW
 70
     0
  9
$UCSORGTOP
 10
0.0
 20
0.0
 30
0.0
  9
$UCSORGBOTTOM
 10
0.0
 20
0.0
 30
0.0
  9
$UCSORGLEFT
 10
0.0
 20
0.0
 30
0.0
  9
$UCSORGRIGHT
 10
0.0
 20
0.0
 30
0.0
  9
$UCSORGFRONT
 10
0.0
 20
0.0
 30
0.0
  9
$UCSORGBACK
 10
0.0
 20
0.0
 30
0.0
  9
$PUCSBASE
  2

  9
$PUCSNAME
  2

  9
$PUCSORG
 10
0.0
 20
0.0
 30
0.0
  9
$PUCSXDIR
 10
1.0
 20
0.0
 30
0.0
  9
$PUCSYDIR
 10
0.0
 20
1.0
 30
0.0
  9
$PUCSORTHOREF
  2

  9
$PUCSORTHOVIEW
 70
     0
  9
$PUCSORGTOP
 10
0.0
 20
0.0
 30
0.0
  9
$PUCSORGBOTTOM
 10
0.0
 20
0.0
 30
0.0
  9
$PUCSORGLEFT
 10
0.0
 20
0.0
 30
0.0
  9
$PUCSORGRIGHT
 10
0.0
 20
0.0
 30
0.0
  9
$PUCSORGFRONT
 10
0.0
 20
0.0
 30
0.0
  9
$PUCSORGBACK
 10
0.0
 20
0.0
 30
0.0
  9
$USERI1
 70
     0
  9
$USERI2
 70
     0
  9
$USERI3
 70
     0
  9
$USERI4
 70
     0
  9
$USERI5
 70
     0
  9
$USERR1
 40
0.0
  9
$USERR2
 40
0.0
  9
$USERR3
 40
0.0
  9
$USERR4
 40
0.0
  9
$USERR5
 40
0.0
  9
$WORLDVIEW
 70
     1
  9
$SHADEDGE
 70
     3
  9
$SHADEDIF
 70
    70
  9
$TILEMODE
 70
     1
  9
$MAXACTVP
 70
    64
  9
$PINSBASE
 10
0.0
 20
0.0
 30
0.0
  9
$PLIMCHECK
 70
     0
  9
$PEXTMIN
 10
1.0000000000E+20
 20
1.0000000000E+20
 30
1.0000000000E+20
  9
$PEXTMAX
 10
-1.0000000000E+20
 20
-1.0000000000E+20
 30
-1.0000000000E+20
  9
$PLIMMIN
 10
0.0
 20
0.0
  9
$PLIMMAX
 10
420.0
 20
297.0
  9
$UNITMODE
 70
     0
  9
$VISRETAIN
 70
     1
  9
$PLINEGEN
 70
     0
  9
$PSLTSCALE
 70
     1
  9
$TREEDEPTH
 70
  3020
  9
$CMLSTYLE
  2
Standard
  9
$CMLJUST
 70
     0
  9
$CMLSCALE
 40
20.0
  9
$PROXYGRAPHICS
 70
     1
  9
$MEASUREMENT
 70
     1
  9
$CELWEIGHT
370
    -1
  9
$ENDCAPS
280
     0
  9
$JOINSTYLE
280
     0
  9
$LWDISPLAY
290
     1
  9
$INSUNITS
 70
     4
  9
$HYPERLINKBASE
  1

  9
$STYLESHEET
  1

  9
$XEDIT
290
     1
  9
$CEPSNTYPE
380
     0
  9
$PSTYLEMODE
290
     1
  9
$FINGERPRINTGUID
  2
{fe34ef2b-0203-491d-b792-3e3ba4b6f980}
  9
$VERSIONGUID
  2
{FAEB1C32-E019-11D5-929B-00C0DF256EC4}
  9
$EXTNAMES
290
     1
  9
$PSVPSCALE
 40
0.0
  9
$OLESTARTUP
290
     0
  0
ENDSEC
  0
SECTION
  2
CLASSES
  0
CLASS
  1
ACDBDICTIONARYWDFLT
  2
AcDbDictionaryWithDefault
  3
ObjectDBX Classes
 90
        0
280
     0
281
     0
  0
CLASS
  1
VISUALSTYLE
  2
AcDbVisualStyle
  3
ObjectDBX Classes
 90
     4095
280
     0
281
     0
  0
CLASS
  1
MATERIAL
  2
AcDbMaterial
  3
ObjectDBX Classes
 90
     1153
280
     0
281
     0
  0
CLASS
  1
SCALE
  2
AcDbScale
  3
ObjectDBX Classes
 90
     1153
280
     0
281
     0
  0
CLASS
  1
TABLESTYLE
  2
AcDbTableStyle
  3
ObjectDBX Classes
 90
     4095
280
     0
281
     0
  0
CLASS
  1
MLEADERSTYLE
  2
AcDbMLeaderStyle
  3
ACDB_MLEADERSTYLE_CLASS
 90
     4095
280
     0
281
     0
  0
CLASS
  1
SUN
  2
AcDbSun
  3
SCENEOE
 90
     1153
280
     0
281
     0
  0
CLASS
  1
ACDBPLACEHOLDER
  2
AcDbPlaceHolder
  3
ObjectDBX Classes
 90
        0
280
     0
281
     0
  0
CLASS
  1
LAYOUT
  2
AcDbLayout
  3
ObjectDBX Classes
 90
        0
280
     0
281
     0
  0
ENDSEC
  0
SECTION
  2
TABLES
  0
TABLE
  2
VPORT
  5
8
330
0
100
AcDbSymbolTable
 70
     1
  0
VPORT
  5
29
330
8
100
AcDbSymbolTableRecord
100
AcDbViewportTableRecord
  2
*Active
 70
     0
 10
0.0
 20
0.0
 11
1.0
 21
1.0
 12
139.7
 22
107.95
 13
0.0
 23
0.0
 14
10.0
 24
10.0
 15
10.0
 25
10.0
 16
0.0
 26
0.0
 36
1.0
 17
0.0
 27
0.0
 37
0.0
 40
215.9
 41
1.2941176471
 42
50.0
 43
0.0
 44
0.0
 50
0.0
 51
0.0
 71
     0
 72
  2000
 73
     1
 74
     3
 75
     0
 76
     0
 77
     0
 78
     0
281
     0
 65
     1
110
0.0
120
0.0
130
0.0
111
1.0
121
0.0
131
0.0
112
0.0
122
1.0
132
0.0
 79
     0
146
0.0
  0
ENDTAB
  0
TABLE
  2
LTYPE
  5
5
330
0
100
AcDbSymbolTable
 70
     6
  0
LTYPE
  5
14
330
5
100
AcDbSymbolTableRecord
100
AcDbLinetypeTableRecord
  2
ByBlock
 70
     0
  3

 72
    65
 73
     0
 40
0.0
  0
LTYPE
  5
15
330
5
100
AcDbSymbolTableRecord
100
AcDbLinetypeTableRecord
  2
ByLayer
 70
     0
  3

 72
    65
 73
     0
 40
0.0
  0
LTYPE
  5
16
330
5
100
AcDbSymbolTableRecord
100
AcDbLinetypeTableRecord
  2
Continuous
 70
     0
  3
Solid line
 72
    65
 73
     0
 40
0.0
  0
LTYPE
  5
6E
330
5
100
AcDbSymbolTableRecord
100
AcDbLinetypeTableRecord
  2
HIDDEN
 70
     0
  3
Hidden __ __ __ __ __ __ __ __ __ __ __ __ __ __
 72
    65
 73
     2
 40
1.905
 49
1.27
 74
     0
 49
-0.635
 74
     0
  0
LTYPE
  5
6F
330
5
100
AcDbSymbolTableRecord
100
AcDbLinetypeTableRecord
  2
PHANTOM
 70
     0
  3
Phantom ______  __  __  ______  __  __  ______
 72
    65
 73
     6
 40
12.7
 49
6.35
 74
     0
 49
-1.27
 74
     0
 49
1.27
 74
     0
 49
-1.27
 74
     0
 49
1.27
 74
     0
 49
-1.27
 74
     0
  0
LTYPE
  5
70
330
5
100
AcDbSymbolTableRecord
100
AcDbLinetypeTableRecord
  2
CENTER
 70
     0
  3
Center ____ _ ____ _ ____ _ ____ _ ____ _ ____
 72
    65
 73
     4
 40
10.16
 49
6.35
 74
     0
 49
-1.27
 74
     0
 49
1.27
 74
     0
 49
-1.27
 74
     0
  0
LTYPE
  5
71
330
5
100
AcDbSymbolTableRecord
100
AcDbLinetypeTableRecord
  2
CENTERX2
 70
     0
  3
Center (2x) ________  __  ________  __  _____
 72
    65
 73
     4
 40
20.32
 49
12.7
 74
     0
 49
-2.54
 74
     0
 49
2.54
 74
     0
 49
-2.54
 74
     0
  0
LTYPE
  5
72
330
5
100
AcDbSymbolTableRecord
100
AcDbLinetypeTableRecord
  2
DOT2
 70
     0
  3
Dot (.5x) ........................................
 72
    65
 73
     2
 40
0.635
 49
0.0
 74
     0
 49
-0.635
 74
     0
  0
ENDTAB
  0
TABLE
  2
LAYER
  5
2
330
0
100
AcDbSymbolTable
 70
    17
  0
LAYER
  5
10
330
2
100
AcDbSymbolTableRecord
100
AcDbLayerTableRecord
  2
0
 70
     0
 62
     7
  6
Continuous
370
    -3
390
F
  0
LAYER
  5
73
330
2
100
AcDbSymbolTableRecord
100
AcDbLayerTableRecord
  2
FORMAT
 70
     0
 62
     7
  6
Continuous
370
    -3
390
F
  0
LAYER
  5
74
330
2
100
AcDbSymbolTableRecord
100
AcDbLayerTableRecord
  2
YARDIMCI_GEOMETRI
 70
     0
 62
    -6
  6
Continuous
290
     0
370
    -3
390
F
  0
LAYER
  5
75
330
2
100
AcDbSymbolTableRecord
100
AcDbLayerTableRecord
  2
SAYFA_CERCEVESI
 70
     0
 62
     7
  6
Continuous
370
    25
390
F
  0
LAYER
  5
76
330
2
100
AcDbSymbolTableRecord
100
AcDbLayerTableRecord
  2
ANTET
 70
     0
 62
     7
  6
Continuous
370
    -3
390
F
  0
LAYER
  5
77
330
2
100
AcDbSymbolTableRecord
100
AcDbLayerTableRecord
  2
OLCU
 70
     0
 62
   150
  6
Continuous
370
    -3
390
F
  0
LAYER
  5
78
330
2
100
AcDbSymbolTableRecord
100
AcDbLayerTableRecord
  2
METIN
 70
     0
 62
    96
  6
Continuous
370
    -3
390
F
  0
LAYER
  5
79
330
2
100
AcDbSymbolTableRecord
100
AcDbLayerTableRecord
  2
BALON
 70
     0
 62
     5
  6
Continuous
370
    -3
390
F
  0
LAYER
  5
7A
330
2
100
AcDbSymbolTableRecord
100
AcDbLayerTableRecord
  2
VURGU
 70
     0
 62
     7
  6
Continuous
370
    -3
390
F
  0
LAYER
  5
7B
330
2
100
AcDbSymbolTableRecord
100
AcDbLayerTableRecord
  2
SILIK
 70
     0
 62
     7
  6
Continuous
370
    -3
390
F
  0
LAYER
  5
7C
330
2
100
AcDbSymbolTableRecord
100
AcDbLayerTableRecord
  2
MODEL
 70
     0
 62
     7
  6
Continuous
370
    -3
390
F
  0
LAYER
  5
7D
330
2
100
AcDbSymbolTableRecord
100
AcDbLayerTableRecord
  2
DETAYLANDıRMA
 70
     0
 62
   190
  6
Continuous
370
    -3
390
F
  0
LAYER
  5
7E
330
2
100
AcDbSymbolTableRecord
100
AcDbLayerTableRecord
  2
TOLERANS
 70
     0
 62
   230
  6
Continuous
370
    -3
390
F
  0
LAYER
  5
7F
330
2
100
AcDbSymbolTableRecord
100
AcDbLayerTableRecord
  2
MERKEZ_CIZGILERI
 70
     0
 62
    30
  6
Continuous
370
    -3
390
F
  0
LAYER
  5
80
330
2
100
AcDbSymbolTableRecord
100
AcDbLayerTableRecord
  2
KESIT-DETAY_CIZGILERI
 70
     0
 62
     7
  6
Continuous
370
    -3
390
F
  0
LAYER
  5
81
330
2
100
AcDbSymbolTableRecord
100
AcDbLayerTableRecord
  2
\U+041E\U+0421\U+0415\U+0412\U+042B\U+0415
 70
     0
 62
     7
  6
Continuous
370
    -3
390
F
  0
LAYER
  5
82
330
2
100
AcDbSymbolTableRecord
100
AcDbLayerTableRecord
  2
\U+0412\U+041E\U+0414\U+042F\U+041D\U+042B\U+0415_\U+0417\U+041D\U+0410\U+041A\U+0418
 70
     0
 62
    11
  6
Continuous
370
    -3
390
F
  0
ENDTAB
  0
TABLE
  2
STYLE
  5
3
330
0
100
AcDbSymbolTable
 70
     1
  0
STYLE
  5
11
330
3
100
AcDbSymbolTableRecord
100
AcDbTextStyleTableRecord
  2
Standard
 70
     0
 40
0.0
 41
1.0
 50
0.0
 71
     0
 42
3.5
  3
txt
  4

  0
ENDTAB
  0
TABLE
  2
VIEW
  5
6
330
0
100
AcDbSymbolTable
 70
     0
  0
ENDTAB
  0
TABLE
  2
UCS
  5
7
330
0
100
AcDbSymbolTable
 70
     0
  0
ENDTAB
  0
TABLE
  2
APPID
  5
9
330
0
100
AcDbSymbolTable
 70
     1
  0
APPID
  5
12
330
9
100
AcDbSymbolTableRecord
100
AcDbRegAppTableRecord
  2
ACAD
 70
     0
  0
ENDTAB
  0
TABLE
  2
DIMSTYLE
  5
A
330
0
100
AcDbSymbolTable
 70
     1
100
AcDbDimStyleTable
  0
DIMSTYLE
105
27
330
A
100
AcDbSymbolTableRecord
100
AcDbDimStyleTableRecord
  2
ISO-25
 70
     0
 41
2.5
 42
0.625
 43
3.75
 44
1.25
 73
     0
 74
     0
 77
     1
 78
     8
140
2.5
141
2.5
143
0.0393700787
147
0.625
171
     3
172
     1
178
     0
271
     2
272
     2
274
     3
278
    44
283
     0
284
     8
340
11
  0
ENDTAB
  0
TABLE
  2
BLOCK_RECORD
  5
1
330
0
100
AcDbSymbolTable
 70
     2
  0
BLOCK_RECORD
  5
1F
330
1
100
AcDbSymbolTableRecord
100
AcDbBlockTableRecord
  2
*Model_Space
340
22
  0
BLOCK_RECORD
  5
1B
330
1
100
AcDbSymbolTableRecord
100
AcDbBlockTableRecord
  2
*Paper_Space
340
1E
  0
BLOCK_RECORD
  5
23
330
1
100
AcDbSymbolTableRecord
100
AcDbBlockTableRecord
  2
*Paper_Space0
340
26
  0
BLOCK_RECORD
  5
88
330
1
100
AcDbSymbolTableRecord
100
AcDbBlockTableRecord
  2
SW_CENTERMARKSYMBOL_0
340
0
102
{BLKREFS
331
93
102
}
  0
ENDTAB
  0
ENDSEC
  0
SECTION
  2
BLOCKS
  0
BLOCK
  5
20
330
1F
100
AcDbEntity
  8
0
100
AcDbBlockBegin
  2
*Model_Space
 70
     0
 10
0.0
 20
0.0
 30
0.0
  3
*Model_Space
  1

  0
ENDBLK
  5
21
330
1F
100
AcDbEntity
  8
0
100
AcDbBlockEnd
  0
BLOCK
  5
1C
330
1B
100
AcDbEntity
 67
     1
  8
0
100
AcDbBlockBegin
  2
*Paper_Space
 70
     0
 10
0.0
 20
0.0
 30
0.0
  3
*Paper_Space
  1

  0
ENDBLK
  5
1D
330
1B
100
AcDbEntity
 67
     1
  8
0
100
AcDbBlockEnd
  0
BLOCK
  5
24
330
23
100
AcDbEntity
  8
0
100
AcDbBlockBegin
  2
*Paper_Space0
 70
     0
 10
0.0
 20
0.0
 30
0.0
  3
*Paper_Space0
  1

  0
ENDBLK
  5
25
330
23
100
AcDbEntity
  8
0
100
AcDbBlockEnd
  0
BLOCK
  5
89
330
88
100
AcDbEntity
  8
0
100
AcDbBlockBegin
  2
SW_CENTERMARKSYMBOL_0
 70
     0
 10
0.0
 20
0.0
 30
0.0
  3
SW_CENTERMARKSYMBOL_0
  1

  0
LINE
  5
8B
330
88
100
AcDbEntity
  8
FORMAT
 62
     0
100
AcDbLine
 10
0.0
 20
0.0
 30
0.0
 11
0.0
 21
2.5
 31
0.0
  0
LINE
  5
8C
330
88
100
AcDbEntity
  8
FORMAT
 62
     0
100
AcDbLine
 10
0.0
 20
0.0
 30
0.0
 11
-2.5
 21
0.0
 31
0.0
  0
LINE
  5
8D
330
88
100
AcDbEntity
  8
FORMAT
 62
     0
100
AcDbLine
 10
0.0
 20
0.0
 30
0.0
 11
0.0
 21
-2.5
 31
0.0
  0
LINE
  5
8E
330
88
100
AcDbEntity
  8
FORMAT
 62
     0
100
AcDbLine
 10
0.0
 20
0.0
 30
0.0
 11
2.5
 21
0.0
 31
0.0
  0
LINE
  5
8F
330
88
100
AcDbEntity
  8
FORMAT
 62
     0
100
AcDbLine
 10
0.0
 20
5.0
 30
0.0
 11
0.0
 21
227.5
 31
0.0
  0
LINE
  5
90
330
88
100
AcDbEntity
  8
FORMAT
 62
     0
100
AcDbLine
 10
-5.0
 20
0.0
 30
0.0
 11
-227.5
 21
0.0
 31
0.0
  0
LINE
  5
91
330
88
100
AcDbEntity
  8
FORMAT
 62
     0
100
AcDbLine
 10
0.0
 20
-5.0
 30
0.0
 11
0.0
 21
-227.5
 31
0.0
  0
LINE
  5
92
330
88
100
AcDbEntity
  8
FORMAT
 62
     0
100
AcDbLine
 10
5.0
 20
0.0
 30
0.0
 11
227.5
 21
0.0
 31
0.0
  0
ENDBLK
  5
8A
330
88
100
AcDbEntity
  8
0
100
AcDbBlockEnd
  0
ENDSEC
  0
SECTION
  2
ENTITIES
  0
CIRCLE
  5
83
330
1F
100
AcDbEntity
  8
0
  6
Continuous
 62
     7
370
    25
100
AcDbCircle
 10
139.395004093
 20
107.5851680021
 30
0.0
 40
225.0
  0
CIRCLE
  5
84
330
1F
100
AcDbEntity
  8
0
  6
Continuous
 62
     7
370
    25
100
AcDbCircle
 10
139.395004093
 20
107.5851680021
 30
0.0
 40
184.1000000000001
  0
CIRCLE
  5
85
330
1F
100
AcDbEntity
  8
0
  6
Continuous
 62
     7
370
    25
100
AcDbCircle
 10
139.395004093
 20
107.5851680021
 30
0.0
 40
183.0504257740936
  0
CIRCLE
  5
86
330
1F
100
AcDbEntity
  8
0
  6
Continuous
 62
     7
370
    25
100
AcDbCircle
 10
139.395004093
 20
107.5851680021
 30
0.0
 40
129.9495742259065
  0
CIRCLE
  5
87
330
1F
100
AcDbEntity
  8
0
  6
Continuous
 62
     7
370
    25
100
AcDbCircle
 10
139.395004093
 20
107.5851680021
 30
0.0
 40
128.9000000000001
  0
INSERT
  5
93
330
1F
100
AcDbEntity
  8
FORMAT
 62
     7
100
AcDbBlockReference
  2
SW_CENTERMARKSYMBOL_0
 10
139.395004093
 20
107.5851680021
 30
0.0
  0
LINE
  5
94
330
1F
100
AcDbEntity
  8
0
  6
Continuous
 62
     7
370
    25
100
AcDbLine
 10
-570.708296777
 20
332.5851680021
 30
0.0
 11
-773.2177238032
 21
332.5851680021
 31
0.0
  0
LINE
  5
95
330
1F
100
AcDbEntity
  8
0
  6
Continuous
 62
     7
370
    25
100
AcDbLine
 10
-773.2177238032
 20
-117.4148319979
 30
0.0
 11
-570.708296777
 21
-117.4148319979
 31
0.0
  0
ARC
  5
96
330
1F
100
AcDbEntity
  8
0
  6
Continuous
 62
     7
370
    25
100
AcDbCircle
 10
-570.708296777
 20
330.5851680021
 30
0.0
 40
2.0
100
AcDbArc
 50
62.4364306728
 51
90.0
  0
ARC
  5
97
330
1F
100
AcDbEntity
  8
0
  6
Continuous
 62
     7
370
    25
100
AcDbCircle
 10
-570.708296777
 20
-115.4148319979
 30
0.0
 40
2.0
100
AcDbArc
 50
270.0
 51
297.5635693272
  0
LINE
  5
98
330
1F
100
AcDbEntity
  8
0
  6
Continuous
 62
     7
370
    25
100
AcDbLine
 10
-569.7828318528
 20
-117.1878279579
 30
0.0
 11
-479.6526157535
 21
-70.1418360379
 31
0.0
  0
LINE
  5
99
330
1F
100
AcDbEntity
  8
0
  6
Continuous
 62
     7
370
    25
100
AcDbLine
 10
-479.6526157535
 20
285.3121720421
 30
0.0
 11
-569.7828318528
 21
332.3581639621
 31
0.0
  0
ARC
  5
9A
330
1F
100
AcDbEntity
  8
0
  6
Continuous
 62
     7
370
    25
100
AcDbCircle
 10
-478.7271508293
 20
287.0851680021
 30
0.0
 40
2.0
100
AcDbArc
 50
242.4364306728
 51
270.0
  0
ARC
  5
9B
330
1F
100
AcDbEntity
  8
0
  6
Continuous
 62
     7
370
    25
100
AcDbCircle
 10
-478.7271508293
 20
-71.9148319979
 30
0.0
 40
2.0
100
AcDbArc
 50
90.0
 51
117.5635693272
  0
LINE
  5
9C
330
1F
100
AcDbEntity
  8
0
  6
Continuous
 62
     7
370
    25
100
AcDbLine
 10
-306.2177238032
 20
285.0851680021
 30
0.0
 11
-478.7271508293
 21
285.0851680021
 31
0.0
  0
LINE
  5
9D
330
1F
100
AcDbEntity
  8
0
  6
Continuous
 62
     7
370
    25
100
AcDbLine
 10
-478.7271508293
 20
-69.9148319979
 30
0.0
 11
-306.2177238032
 21
-69.9148319979
 31
0.0
  0
LINE
  5
9E
330
1F
100
AcDbEntity
  8
0
  6
Continuous
 62
     7
370
    25
100
AcDbLine
 10
-773.2177238032
 20
332.5851680021
 30
0.0
 11
-773.2177238032
 21
-117.4148319979
 31
0.0
  0
LINE
  5
9F
330
1F
100
AcDbEntity
  8
0
  6
Continuous
 62
     7
370
    25
100
AcDbLine
 10
-306.2177238032
 20
285.0851680021
 30
0.0
 11
-306.2177238032
 21
-69.9148319979
 31
0.0
  0
LINE
  5
A0
330
1F
100
AcDbEntity
  8
0
  6
Continuous
 62
     1
370
    25
100
AcDbLine
 10
-570.708296777
 20
332.5851680021
 30
0.0
 11
-570.708296777
 21
-117.4148319979
 31
0.0
  0
LINE
  5
A1
330
1F
100
AcDbEntity
  8
0
  6
Continuous
 62
     1
370
    25
100
AcDbLine
 10
-569.7828318528
 20
332.3581639621
 30
0.0
 11
-569.7828318528
 21
-117.1878279579
 31
0.0
  0
LINE
  5
A2
330
1F
100
AcDbEntity
  8
0
  6
Continuous
 62
     1
370
    25
100
AcDbLine
 10
-479.6526157535
 20
285.3121720421
 30
0.0
 11
-479.6526157535
 21
-70.1418360379
 31
0.0
  0
LINE
  5
A3
330
1F
100
AcDbEntity
  8
0
  6
Continuous
 62
     1
370
    25
100
AcDbLine
 10
-478.7271508293
 20
285.0851680021
 30
0.0
 11
-478.7271508293
 21
-69.9148319979
 31
0.0
  0
ARC
  5
A4
330
1F
100
AcDbEntity
  8
0
  6
Continuous
 62
     7
370
    25
100
AcDbCircle
 10
814.7473178421
 20
-115.4148319979
 30
0.0
 40
2.000000000000013
100
AcDbArc
 50
232.1934700553
 51
270.0
  0
ARC
  5
A5
330
1F
100
AcDbEntity
  8
0
  6
Continuous
 62
     7
370
    25
100
AcDbCircle
 10
814.7473178421
 20
330.5851680021
 30
0.0
 40
2.000000000000002
100
AcDbArc
 50
90.0
 51
127.8065299447
  0
LINE
  5
A6
330
1F
100
AcDbEntity
  8
0
  6
Continuous
 62
     7
370
    25
100
AcDbLine
 10
814.7473178421
 20
-117.4148319979
 30
0.0
 11
1018.0624374595
 21
-117.4148319979
 31
0.0
  0
LINE
  5
A7
330
1F
100
AcDbEntity
  8
0
  6
Continuous
 62
     7
370
    25
100
AcDbLine
 10
1018.0624374595
 20
332.5851680021
 30
0.0
 11
814.7473178421
 21
332.5851680021
 31
0.0
  0
LINE
  5
A8
330
1F
100
AcDbEntity
  8
0
  6
Continuous
 62
     7
370
    25
100
AcDbLine
 10
813.5213236364
 20
332.1653383118
 30
0.0
 11
727.6035512826
 21
265.5049976925
 31
0.0
  0
LINE
  5
A9
330
1F
100
AcDbEntity
  8
0
  6
Continuous
 62
     7
370
    25
100
AcDbLine
 10
727.6035512826
 20
-50.3346616882
 30
0.0
 11
813.5213236364
 21
-116.9950023075
 31
0.0
  0
ARC
  5
AA
330
1F
100
AcDbEntity
  8
0
  6
Continuous
 62
     7
370
    25
100
AcDbCircle
 10
726.3775570769
 20
-51.9148319979
 30
0.0
 40
1.999999999999972
100
AcDbArc
 50
52.1934700553
 51
90.0
  0
ARC
  5
AB
330
1F
100
AcDbEntity
  8
0
  6
Continuous
 62
     7
370
    25
100
AcDbCircle
 10
726.3775570769
 20
267.0851680021
 30
0.0
 40
2.0
100
AcDbArc
 50
270.0
 51
307.8065299447
  0
LINE
  5
AC
330
1F
100
AcDbEntity
  8
0
  6
Continuous
 62
     7
370
    25
100
AcDbLine
 10
568.0624374595
 20
-49.9148319979
 30
0.0
 11
726.3775570769
 21
-49.9148319979
 31
0.0
  0
LINE
  5
AD
330
1F
100
AcDbEntity
  8
0
  6
Continuous
 62
     7
370
    25
100
AcDbLine
 10
726.3775570769
 20
265.0851680021
 30
0.0
 11
568.0624374595
 21
265.0851680021
 31
0.0
  0
LINE
  5
AE
330
1F
100
AcDbEntity
  8
0
  6
Continuous
 62
     7
370
    25
100
AcDbLine
 10
1018.0624374595
 20
107.5851680021
 30
0.0
 11
1018.0624374595
 21
332.5851680021
 31
0.0
  0
LINE
  5
AF
330
1F
100
AcDbEntity
  8
0
  6
Continuous
 62
     7
370
    25
100
AcDbLine
 10
1018.0624374595
 20
-117.4148319979
 30
0.0
 11
1018.0624374595
 21
107.5851680021
 31
0.0
  0
LINE
  5
B0
330
1F
100
AcDbEntity
  8
0
  6
Continuous
 62
     7
370
    25
100
AcDbLine
 10
568.0624374595
 20
107.5851680021
 30
0.0
 11
568.0624374595
 21
265.0851680021
 31
0.0
  0
LINE
  5
B1
330
1F
100
AcDbEntity
  8
0
  6
Continuous
 62
     7
370
    25
100
AcDbLine
 10
568.0624374595
 20
-49.9148319979
 30
0.0
 11
568.0624374595
 21
107.5851680021
 31
0.0
  0
LINE
  5
B2
330
1F
100
AcDbEntity
  8
0
  6
Continuous
 62
     1
370
    25
100
AcDbLine
 10
813.5213236364
 20
107.5851680021
 30
0.0
 11
813.5213236364
 21
332.1653383118
 31
0.0
  0
LINE
  5
B3
330
1F
100
AcDbEntity
  8
0
  6
Continuous
 62
     1
370
    25
100
AcDbLine
 10
813.5213236364
 20
-116.9950023075
 30
0.0
 11
813.5213236364
 21
107.5851680021
 31
0.0
  0
LINE
  5
B4
330
1F
100
AcDbEntity
  8
0
  6
Continuous
 62
     1
370
    25
100
AcDbLine
 10
814.7473178421
 20
107.5851680021
 30
0.0
 11
814.7473178421
 21
332.5851680021
 31
0.0
  0
LINE
  5
B5
330
1F
100
AcDbEntity
  8
0
  6
Continuous
 62
     1
370
    25
100
AcDbLine
 10
814.7473178421
 20
-117.4148319979
 30
0.0
 11
814.7473178421
 21
107.5851680021
 31
0.0
  0
LINE
  5
B6
330
1F
100
AcDbEntity
  8
0
  6
Continuous
 62
     1
370
    25
100
AcDbLine
 10
727.6035512826
 20
107.5851680021
 30
0.0
 11
727.6035512826
 21
265.5049976925
 31
0.0
  0
LINE
  5
B7
330
1F
100
AcDbEntity
  8
0
  6
Continuous
 62
     1
370
    25
100
AcDbLine
 10
727.6035512826
 20
-50.3346616882
 30
0.0
 11
727.6035512826
 21
107.5851680021
 31
0.0
  0
LINE
  5
B8
330
1F
100
AcDbEntity
  8
0
  6
Continuous
 62
     1
370
    25
100
AcDbLine
 10
726.3775570769
 20
107.5851680021
 30
0.0
 11
726.3775570769
 21
265.0851680021
 31
0.0
  0
LINE
  5
B9
330
1F
100
AcDbEntity
  8
0
  6
Continuous
 62
     1
370
    25
100
AcDbLine
 10
726.3775570769
 20
-49.9148319979
 30
0.0
 11
726.3775570769
 21
107.5851680021
 31
0.0
  0
ARC
  5
BA
330
1F
100
AcDbEntity
  8
0
  6
Continuous
 62
     7
370
    25
100
AcDbCircle
 10
362.395004093
 20
729.6549497887
 30
0.0
 40
2.000000000000002
100
AcDbArc
 50
322.1934700553
 51
0.0
  0
ARC
  5
BB
330
1F
100
AcDbEntity
  8
0
  6
Continuous
 62
     7
370
    25
100
AcDbCircle
 10
-83.604995907
 20
729.6549497887
 30
0.0
 40
2.000000000000024
100
AcDbArc
 50
180.0
 51
217.8065299447
  0
LINE
  5
BC
330
1F
100
AcDbEntity
  8
0
  6
Continuous
 62
     7
370
    25
100
AcDbLine
 10
364.395004093
 20
729.6549497887
 30
0.0
 11
364.395004093
 21
932.970069406
 31
0.0
  0
LINE
  5
BD
330
1F
100
AcDbEntity
  8
0
  6
Continuous
 62
     7
370
    25
100
AcDbLine
 10
-85.604995907
 20
932.970069406
 30
0.0
 11
-85.604995907
 21
729.6549497887
 31
0.0
  0
LINE
  5
BE
330
1F
100
AcDbEntity
  8
0
  6
Continuous
 62
     7
370
    25
100
AcDbLine
 10
-85.1851662166
 20
728.4289555829
 30
0.0
 11
-18.5248255973
 21
642.5111832292
 31
0.0
  0
LINE
  5
BF
330
1F
100
AcDbEntity
  8
0
  6
Continuous
 62
     7
370
    25
100
AcDbLine
 10
297.3148337834
 20
642.5111832292
 30
0.0
 11
363.9751744027
 21
728.4289555829
 31
0.0
  0
ARC
  5
C0
330
1F
100
AcDbEntity
  8
0
  6
Continuous
 62
     7
370
    25
100
AcDbCircle
 10
298.895004093
 20
641.2851890234
 30
0.0
 40
2.000000000000002
100
AcDbArc
 50
142.1934700553
 51
180.0
  0
ARC
  5
C1
330
1F
100
AcDbEntity
  8
0
  6
Continuous
 62
     7
370
    25
100
AcDbCircle
 10
-20.104995907
 20
641.2851890234
 30
0.0
 40
1.999999999999974
100
AcDbArc
 50
0.0
 51
37.8065299447
  0
LINE
  5
C2
330
1F
100
AcDbEntity
  8
0
  6
Continuous
 62
     7
370
    25
100
AcDbLine
 10
296.895004093
 20
482.970069406
 30
0.0
 11
296.895004093
 21
641.2851890234
 31
0.0
  0
LINE
  5
C3
330
1F
100
AcDbEntity
  8
0
  6
Continuous
 62
     7
370
    25
100
AcDbLine
 10
-18.104995907
 20
641.2851890234
 30
0.0
 11
-18.104995907
 21
482.970069406
 31
0.0
  0
LINE
  5
C4
330
1F
100
AcDbEntity
  8
0
  6
Continuous
 62
     7
370
    25
100
AcDbLine
 10
364.395004093
 20
932.970069406
 30
0.0
 11
-85.604995907
 21
932.970069406
 31
0.0
  0
LINE
  5
C5
330
1F
100
AcDbEntity
  8
0
  6
Continuous
 62
     7
370
    25
100
AcDbLine
 10
296.895004093
 20
482.970069406
 30
0.0
 11
-18.104995907
 21
482.970069406
 31
0.0
  0
LINE
  5
C6
330
1F
100
AcDbEntity
  8
0
  6
Continuous
 62
     1
370
    25
100
AcDbLine
 10
363.9751744027
 20
728.4289555829
 30
0.0
 11
-85.1851662166
 21
728.4289555829
 31
0.0
  0
LINE
  5
C7
330
1F
100
AcDbEntity
  8
0
  6
Continuous
 62
     1
370
    25
100
AcDbLine
 10
364.395004093
 20
729.6549497887
 30
0.0
 11
-85.604995907
 21
729.6549497887
 31
0.0
  0
LINE
  5
C8
330
1F
100
AcDbEntity
  8
0
  6
Continuous
 62
     1
370
    25
100
AcDbLine
 10
297.3148337834
 20
642.5111832292
 30
0.0
 11
-18.5248255973
 21
642.5111832292
 31
0.0
  0
LINE
  5
C9
330
1F
100
AcDbEntity
  8
0
  6
Continuous
 62
     1
370
    25
100
AcDbLine
 10
296.895004093
 20
641.2851890234
 30
0.0
 11
-18.104995907
 21
641.2851890234
 31
0.0
  0
ARC
  5
CA
330
1F
100
AcDbEntity
  8
0
  6
Continuous
 62
     7
370
    25
100
AcDbCircle
 10
-83.604995907
 20
-523.894172472
 30
0.0
 40
2.000000000000024
100
AcDbArc
 50
142.1934700553
 51
180.0
  0
ARC
  5
CB
330
1F
100
AcDbEntity
  8
0
  6
Continuous
 62
     7
370
    25
100
AcDbCircle
 10
362.395004093
 20
-523.894172472
 30
0.0
 40
2.000000000000002
100
AcDbArc
 50
0.0
 51
37.8065299447
  0
LINE
  5
CC
330
1F
100
AcDbEntity
  8
0
  6
Continuous
 62
     7
370
    25
100
AcDbLine
 10
-85.604995907
 20
-523.894172472
 30
0.0
 11
-85.604995907
 21
-727.2092920894
 31
0.0
  0
LINE
  5
CD
330
1F
100
AcDbEntity
  8
0
  6
Continuous
 62
     7
370
    25
100
AcDbLine
 10
364.395004093
 20
-727.2092920894
 30
0.0
 11
364.395004093
 21
-523.894172472
 31
0.0
  0
LINE
  5
CE
330
1F
100
AcDbEntity
  8
0
  6
Continuous
 62
     7
370
    25
100
AcDbLine
 10
363.9751744027
 20
-522.6681782663
 30
0.0
 11
297.3148337834
 21
-436.7504059125
 31
0.0
  0
LINE
  5
CF
330
1F
100
AcDbEntity
  8
0
  6
Continuous
 62
     7
370
    25
100
AcDbLine
 10
-18.5248255973
 20
-436.7504059125
 30
0.0
 11
-85.1851662166
 21
-522.6681782663
 31
0.0
  0
ARC
  5
D0
330
1F
100
AcDbEntity
  8
0
  6
Continuous
 62
     7
370
    25
100
AcDbCircle
 10
-20.104995907
 20
-435.5244117068
 30
0.0
 40
1.999999999999972
100
AcDbArc
 50
322.1934700553
 51
0.0
  0
ARC
  5
D1
330
1F
100
AcDbEntity
  8
0
  6
Continuous
 62
     7
370
    25
100
AcDbCircle
 10
298.895004093
 20
-435.5244117068
 30
0.0
 40
2.0
100
AcDbArc
 50
180.0
 51
217.8065299447
  0
LINE
  5
D2
330
1F
100
AcDbEntity
  8
0
  6
Continuous
 62
     7
370
    25
100
AcDbLine
 10
-18.104995907
 20
-277.2092920894
 30
0.0
 11
-18.104995907
 21
-435.5244117068
 31
0.0
  0
LINE
  5
D3
330
1F
100
AcDbEntity
  8
0
  6
Continuous
 62
     7
370
    25
100
AcDbLine
 10
296.895004093
 20
-435.5244117068
 30
0.0
 11
296.895004093
 21
-277.2092920894
 31
0.0
  0
LINE
  5
D4
330
1F
100
AcDbEntity
  8
0
  6
Continuous
 62
     7
370
    25
100
AcDbLine
 10
-85.604995907
 20
-727.2092920894
 30
0.0
 11
364.395004093
 21
-727.2092920894
 31
0.0
  0
LINE
  5
D5
330
1F
100
AcDbEntity
  8
0
  6
Continuous
 62
     7
370
    25
100
AcDbLine
 10
-18.104995907
 20
-277.2092920894
 30
0.0
 11
296.895004093
 21
-277.2092920894
 31
0.0
  0
LINE
  5
D6
330
1F
100
AcDbEntity
  8
0
  6
Continuous
 62
     1
370
    25
100
AcDbLine
 10
-85.1851662166
 20
-522.6681782663
 30
0.0
 11
363.9751744027
 21
-522.6681782663
 31
0.0
  0
LINE
  5
D7
330
1F
100
AcDbEntity
  8
0
  6
Continuous
 62
     1
370
    25
100
AcDbLine
 10
-85.604995907
 20
-523.894172472
 30
0.0
 11
364.395004093
 21
-523.894172472
 31
0.0
  0
LINE
  5
D8
330
1F
100
AcDbEntity
  8
0
  6
Continuous
 62
     1
370
    25
100
AcDbLine
 10
-18.5248255973
 20
-436.7504059125
 30
0.0
 11
297.3148337834
 21
-436.7504059125
 31
0.0
  0
LINE
  5
D9
330
1F
100
AcDbEntity
  8
0
  6
Continuous
 62
     1
370
    25
100
AcDbLine
 10
-18.104995907
 20
-435.5244117068
 30
0.0
 11
296.895004093
 21
-435.5244117068
 31
0.0
  0
LINE
  5
DA
330
1F
100
AcDbEntity
  8
0
  6
Continuous
 62
     7
370
    25
100
AcDbLine
 10
871.6457965548
 20
-290.6583797627
 30
0.0
 11
727.8802967556
 21
-207.6643233068
 31
0.0
  0
LINE
  5
DB
330
1F
100
AcDbEntity
  8
0
  6
Continuous
 62
     7
370
    25
100
AcDbLine
 10
502.8985819125
 20
-597.3863113781
 30
0.0
 11
646.6640817117
 21
-680.380367834
 31
0.0
  0
SPLINE
  5
DC
330
1F
100
AcDbEntity
  8
0
  6
Continuous
 62
     7
370
    25
100
AcDbSpline
210
0.0
220
0.0
230
1.0
 70
     8
 71
     3
 72
    16
 73
    12
 74
     0
 42
0.00000001
 43
0.00000001
 40
0.0
 40
0.0
 40
0.0
 40
0.0
 40
0.0549731234303925
 40
0.189342946459657
 40
0.323616038878911
 40
0.4577797418533441
 40
0.5918238925235498
 40
0.725742168798311
 40
0.8595333993846707
 40
0.9932026417147867
 40
1.0
 40
1.0
 40
1.0
 40
1.0
 10
906.8322853790156
 20
-331.38049692411
 30
0.0
 10
906.527086016484
 20
-330.677605111168
 30
0.0
 10
905.4758933071498
 20
-328.2566474031104
 30
0.0
 10
903.4586952356776
 20
-324.3454465932463
 30
0.0
 10
900.7898814335979
 20
-319.6525922061475
 30
0.0
 10
897.9081830853095
 20
-315.2070414213537
 30
0.0
 10
894.8326305717654
 20
-311.0013171122957
 30
0.0
 10
891.5704327079088
 20
-307.0357816829616
 30
0.0
 10
888.102409091615
 20
-303.3524862257841
 30
0.0
 10
885.6580303692002
 20
-300.9341060078194
 30
0.0
 10
884.3219744411617
 20
-299.8193913224736
 30
0.0
 10
884.2573209876563
 20
-299.7654488545211
 30
0.0
  0
SPLINE
  5
DD
330
1F
100
AcDbEntity
  8
0
  6
Continuous
 62
     7
370
    25
100
AcDbSpline
210
0.0
220
0.0
230
1.0
 70
     8
 71
     3
 72
    16
 73
    12
 74
     0
 42
0.00000001
 43
0.00000001
 40
0.0
 40
0.0
 40
0.0
 40
0.0
 40
0.0189627858863051
 40
0.1450392336035511
 40
0.271203080304691
 40
0.397470487730109
 40
0.5238511740979425
 40
0.6503485991528708
 40
0.7769606838583131
 40
0.9036808813666001
 40
1.0
 40
1.0
 40
1.0
 40
1.0
 10
661.9721633949194
 20
-687.0973931536012
 30
0.0
 10
662.207688097341
 20
-687.1788605235591
 30
0.0
 10
664.009128167315
 20
-687.8019738663584
 30
0.0
 10
667.5067222734168
 20
-688.6946448444971
 30
0.0
 10
672.4655798423692
 20
-689.75504180674
 30
0.0
 10
677.5596585852342
 20
-690.50152782056
 30
0.0
 10
682.7658438052271
 20
-690.9662534549296
 30
0.0
 10
688.0805086206052
 20
-691.1422746263007
 30
0.0
 10
693.4981316375095
 20
-691.0196168643845
 30
0.0
 10
698.5582433431772
 20
-690.67238102425
 30
0.0
 10
701.8455018938022
 20
-690.2340249283685
 30
0.0
 10
703.2650984554915
 20
-690.0447216542495
 30
0.0
  0
LINE
  5
DE
330
1F
100
AcDbEntity
  8
0
  6
Continuous
 62
     7
370
    25
100
AcDbLine
 10
727.7642884199
 20
-684.197455011
 30
0.0
 11
798.0920819728
 21
-660.445954349
 31
0.0
  0
LINE
  5
DF
330
1F
100
AcDbEntity
  8
0
  6
Continuous
 62
     7
370
    25
100
AcDbLine
 10
930.1093292328
 20
-431.7605960844
 30
0.0
 11
915.508005796
 21
-358.9805597859
 31
0.0
  0
LINE
  5
E0
330
1F
100
AcDbEntity
  8
0
  6
Continuous
 62
     7
370
    25
100
AcDbLine
 10
1012.331091063
 20
-449.8144466776
 30
0.0
 11
923.4357498226
 21
-398.4962585178
 31
0.0
  0
LINE
  5
E1
330
1F
100
AcDbEntity
  8
0
  6
Continuous
 62
     7
370
    25
100
AcDbLine
 10
765.9485494324
 20
-671.3016501677
 30
0.0
 11
854.8438906729
 21
-722.6198383275
 31
0.0
  0
LWPOLYLINE
  5
E2
330
1F
100
AcDbEntity
  8
0
  6
Continuous
 62
     7
370
    25
100
AcDbPolyline
 90
      160
 70
   128
 43
0.0
 10
456.290413567
 20
-494.3712299225
 10
456.4146206883
 20
-487.0413067853
 10
456.7870481175
 20
-479.5794219632
 10
457.4071143532
 20
-471.9972263037
 10
458.2738512359
 20
-464.3065585051
 10
459.3859054585
 20
-456.5194266323
 10
460.7415406806
 20
-448.6479893673
 10
462.3386402387
 20
-440.7045370251
 10
464.1747104513
 20
-432.7014723634
 10
466.2468845128
 20
-424.6512912179
 10
468.5519269693
 20
-416.5665629906
 10
471.0862387708
 20
-408.4599110251
 10
473.8458628901
 20
-400.3439928959
 10
476.8264905018
 20
-392.231480646
 10
480.0234677096
 20
-384.1350410001
 10
483.4318028133
 20
-376.0673155877
 10
487.0461741021
 20
-368.0409012043
 10
490.8609381642
 20
-360.0683301431
 10
494.8701386986
 20
-352.1620506275
 10
499.0675158143
 20
-344.3344073744
 10
503.4465158054
 20
-336.5976223195
 10
508.0003013832
 20
-328.9637755343
 10
512.721762352
 20
-321.4447863644
 10
517.603526711
 20
-314.0523948187
 10
522.6379721648
 20
-306.7981432392
 10
527.8172380242
 20
-299.6933582786
 10
533.1332374805
 20
-292.7491332151
 10
538.5776702317
 20
-285.9763106319
 10
544.1420354421
 20
-279.3854654876
 10
549.8176450162
 20
-272.9868886043
 10
555.5956371633
 20
-266.7905706003
 10
561.4669902345
 20
-260.8061862908
 10
567.422536809
 20
-255.0430795812
 10
573.4529780077
 20
-249.5102488788
 10
579.5488980127
 20
-244.2163330417
 10
585.7007787684
 20
-239.1695978913
 10
591.8990148434
 20
-234.3779233053
 10
598.1339284277
 20
-229.8487909147
 10
604.3957844439
 20
-225.5892724223
 10
610.6748057472
 20
-221.6060185604
 10
616.9611883912
 20
-217.9052487071
 10
623.2451169356
 20
-214.4927411754
 10
629.516779772
 20
-211.3738241904
 10
635.7663844433
 20
-208.553367571
 10
641.9841729337
 20
-206.0357751253
 10
648.1604369045
 20
-203.8249777751
 10
654.2855328529
 20
-201.9244274179
 10
660.3498971684
 20
-200.3370915376
 10
666.3440610661
 20
-199.0654485708
 10
672.2586653707
 20
-198.1114840368
 10
678.0844751296
 20
-197.4766874382
 10
683.8123940325
 20
-197.1620499344
 10
689.4334786139
 20
-197.1680627947
 10
694.9389522175
 20
-197.4947166305
 10
700.3202186998
 20
-198.1415014107
 10
705.5688758521
 20
-199.1074072577
 10
710.6767285192
 20
-200.3909260241
 10
715.6358013955
 20
-201.9900536478
 10
720.4383514774
 20
-203.9022932808
 10
725.076880153
 20
-206.1246591878
 10
729.5441449105
 20
-208.6536814085
 10
733.8331706462
 20
-211.4854111746
 10
737.9372605556
 20
-214.6154270765
 10
741.8500065894
 20
-218.0388419657
 10
745.5652994593
 20
-221.7503105864
 10
749.0773381763
 20
-225.7440379209
 10
752.3806391091
 20
-230.013788238
 10
755.4700445452
 20
-234.5528948294
 10
758.3407307448
 20
-239.3542704191
 10
760.9882154723
 20
-244.4104182289
 10
763.4083649944
 20
-249.7134436844
 10
765.597400535
 20
-255.2550667407
 10
767.551904175
 20
-261.0266348113
 10
769.2688241889
 20
-267.0191362777
 10
770.7454798099
 20
-273.2232145604
 10
771.9795654155
 20
-279.6291827274
 10
772.9691541277
 20
-286.22703862
 10
773.7127008211
 20
-293.0064804694
 10
774.2090445357
 20
-299.9569229819
 10
774.4574102898
 20
-307.0675138666
 10
774.4574102898
 20
-314.3271507799
 10
774.2090445357
 20
-321.7244986606
 10
773.7127008211
 20
-329.2480074279
 10
772.9691541277
 20
-336.8859300162
 10
771.9795654155
 20
-344.6263407159
 10
770.7454798099
 20
-352.4571537946
 10
769.2688241889
 20
-360.3661423672
 10
767.551904175
 20
-368.340957487
 10
765.597400535
 20
-376.3691474267
 10
763.4083649944
 20
-384.4381771208
 10
760.9882154723
 20
-392.5354477374
 10
758.3407307448
 20
-400.6483163494
 10
755.4700445452
 20
-408.7641156757
 10
752.3806391091
 20
-416.8701738589
 10
749.0773381763
 20
-424.9538342516
 10
745.5652994593
 20
-433.0024751775
 10
741.8500065894
 20
-441.0035296393
 10
737.9372605556
 20
-448.9445049403
 10
733.8331706462
 20
-456.8130021901
 10
729.5441449105
 20
-464.5967356644
 10
725.076880153
 20
-472.2835519873
 10
720.4383514774
 20
-479.8614491075
 10
715.6358013955
 20
-487.3185950384
 10
710.6767285192
 20
-494.6433463317
 10
705.5688758521
 20
-501.8242662579
 10
700.3202186998
 20
-508.8501426627
 10
694.9389522175
 20
-515.7100054744
 10
689.4334786139
 20
-522.3931438314
 10
683.8123940325
 20
-528.8891228065
 10
678.0844751296
 20
-535.1877996996
 10
672.2586653707
 20
-541.2793398745
 10
666.3440610661
 20
-547.1542321144
 10
660.3498971684
 20
-552.8033034723
 10
654.2855328529
 20
-558.2177335939
 10
648.1604369045
 20
-563.3890684893
 10
641.9841729337
 20
-568.309233733
 10
635.7663844433
 20
-572.9705470711
 10
629.516779772
 20
-577.3657304159
 10
623.2451169356
 20
-581.4879212105
 10
616.9611883912
 20
-585.3306831434
 10
610.6748057472
 20
-588.8880161978
 10
604.3957844439
 20
-592.1543660206
 10
598.1339284277
 20
-595.1246325942
 10
591.8990148434
 20
-597.7941781999
 10
585.7007787684
 20
-600.1588346592
 10
579.5488980127
 20
-602.2149098417
 10
573.4529780077
 20
-603.9591934302
 10
567.422536809
 20
-605.3889619327
 10
561.4669902345
 20
-606.5019829356
 10
555.5956371633
 20
-607.2965185887
 10
549.8176450162
 20
-607.7713283188
 10
544.1420354421
 20
-607.9256707669
 10
538.5776702317
 20
-607.7593049457
 10
533.1332374805
 20
-607.2724906155
 10
527.8172380242
 20
-606.4659878793
 10
522.6379721648
 20
-605.3410559952
 10
517.603526711
 20
-603.8994514108
 10
512.721762352
 20
-602.1434250207
 10
508.0003013832
 20
-600.0757186516
 10
503.4465158054
 20
-597.6995607814
 10
499.0675158143
 20
-595.0186614987
 10
494.8701386986
 20
-592.0372067094
 10
490.8609381642
 20
-588.7598516013
 10
487.0461741021
 20
-585.1917133753
 10
483.4318028133
 20
-581.3383632557
 10
480.0234677096
 20
-577.2058177913
 10
476.8264905018
 20
-572.8005294613
 10
473.8458628901
 20
-568.1293766004
 10
471.0862387708
 20
-563.1996526594
 10
468.5519269693
 20
-558.019054817
 10
466.2468845128
 20
-552.5956719618
 10
464.1747104513
 20
-546.9379720622
 10
462.3386402387
 20
-541.0547889451
 10
460.7415406806
 20
-534.9553085025
 10
459.3859054585
 20
-528.6490543491
 10
458.2738512359
 20
-522.1458729522
 10
457.4071143532
 20
-515.4559182575
 10
456.7870481175
 20
-508.5896358351
 10
456.4146206883
 20
-501.55774657
 10
456.290413567
 20
-494.3712299225
  0
LWPOLYLINE
  5
E3
330
1F
100
AcDbEntity
  8
0
  6
Continuous
 62
     7
370
    25
100
AcDbPolyline
 90
      145
 70
   128
 43
0.0
 10
485.2110809176
 20
-477.6756840357
 10
485.3349818696
 20
-471.0470660025
 10
485.7064488733
 20
-464.2880129262
 10
486.32477482
 20
-457.4113910485
 10
487.1887826911
 20
-450.43029041
 10
488.2968277986
 20
-443.3579999325
 10
489.6468009157
 20
-436.2079821229
 10
491.2361322917
 20
-428.9938474465
 10
493.0617965441
 20
-421.7293284187
 10
495.1203184171
 20
-414.4282534643
 10
497.4077793975
 20
-407.1045205944
 10
499.9198251733
 20
-399.772070951
 10
502.6516739224
 20
-392.4448622685
 10
505.5981254156
 20
-385.1368423052
 10
508.753570915
 20
-377.8619222924
 10
512.1120038507
 20
-370.6339504538
 10
515.6670312547
 20
-363.4666856448
 10
519.4118859304
 20
-356.3737711611
 10
523.339439334
 20
-349.3687087686
 10
527.4422151444
 20
-342.4648330018
 10
531.7124034946
 20
-335.6752857806
 10
536.1418758384
 20
-329.0129913939
 10
540.7222004235
 20
-322.4906318978
 10
545.4446583416
 20
-316.1206229744
 10
550.3002601258
 20
-309.9150902976
 10
555.279762862
 20
-303.8858464516
 10
560.3736877838
 20
-298.0443684448
 10
565.5723383156
 20
-292.4017758625
 10
570.8658185305
 20
-286.9688097004
 10
576.2440519882
 20
-281.7558119184
 10
581.6968009157
 20
-276.7727057541
 10
587.2136856953
 20
-272.0289768332
 10
592.7842046233
 20
-267.5336551135
 10
598.3977539005
 20
-263.2952976952
 10
604.0436478166
 20
-259.3219725326
 10
609.7111390917
 20
-255.621243076
 10
615.389439334
 20
-252.2001538743
 10
621.0677395764
 20
-249.0652171652
 10
626.7352308515
 20
-246.2224004788
 10
632.3811247676
 20
-243.6771152784
 10
637.9946740447
 20
-241.4342066589
 10
643.5651929728
 20
-239.4979441244
 10
649.0820777524
 20
-237.8720134608
 10
654.5348266798
 20
-236.5595097193
 10
659.9130601375
 20
-235.5629313256
 10
665.2065403525
 20
-234.8841753231
 10
670.4051908842
 20
-234.5245337626
 10
675.499115806
 20
-234.4846912422
 10
680.4786185422
 20
-234.7647236043
 10
685.3342203264
 20
-235.3640977916
 10
690.0566782445
 20
-236.281672861
 10
694.6370028296
 20
-237.5157021564
 10
699.0664751734
 20
-239.0638366329
 10
703.3366635236
 20
-240.9231293284
 10
707.439439334
 20
-243.0900409737
 10
711.3669927376
 20
-245.5604467292
 10
715.1118474133
 20
-248.3296440373
 10
718.6668748173
 20
-251.3923615734
 10
722.025307753
 20
-254.7427692806
 10
725.1807532524
 20
-258.3744894675
 10
728.1272047456
 20
-262.2806089483
 10
730.8590534948
 20
-266.4536922025
 10
733.3710992705
 20
-270.8857955289
 10
735.6585602509
 20
-275.568482167
 10
737.717082124
 20
-280.4928383566
 10
739.5427463764
 20
-285.6494903058
 10
741.1320777524
 20
-291.0286220346
 10
742.4820508694
 20
-296.61999406
 10
743.5900959769
 20
-302.4129628875
 10
744.4541038481
 20
-308.3965012717
 10
745.0724297948
 20
-314.5592192072
 10
745.4438967984
 20
-320.8893856102
 10
745.5677977505
 20
-327.3749506492
 10
745.4438967984
 20
-334.0035686824
 10
745.0724297948
 20
-340.7626217587
 10
744.4541038481
 20
-347.6392436364
 10
743.5900959769
 20
-354.6203442749
 10
742.4820508694
 20
-361.6926347525
 10
741.1320777524
 20
-368.842652562
 10
739.5427463764
 20
-376.0567872384
 10
737.717082124
 20
-383.3213062663
 10
735.6585602509
 20
-390.6223812207
 10
733.3710992705
 20
-397.9461140905
 10
730.8590534948
 20
-405.278563734
 10
728.1272047456
 20
-412.6057724165
 10
725.1807532524
 20
-419.9137923798
 10
722.025307753
 20
-427.1887123926
 10
718.6668748173
 20
-434.4166842311
 10
715.1118474133
 20
-441.5839490402
 10
711.3669927376
 20
-448.6768635239
 10
707.439439334
 20
-455.6819259163
 10
703.3366635236
 20
-462.5858016831
 10
699.0664751734
 20
-469.3753489044
 10
694.6370028296
 20
-476.037643291
 10
690.0566782445
 20
-482.5600027871
 10
685.3342203264
 20
-488.9300117105
 10
680.4786185422
 20
-495.1355443873
 10
675.499115806
 20
-501.1647882333
 10
670.4051908842
 20
-507.0062662401
 10
665.2065403525
 20
-512.6488588224
 10
659.9130601375
 20
-518.0818249845
 10
654.5348266798
 20
-523.2948227665
 10
649.0820777524
 20
-528.2779289308
 10
643.5651929728
 20
-533.0216578517
 10
637.9946740447
 20
-537.5169795715
 10
632.3811247676
 20
-541.7553369897
 10
626.7352308515
 20
-545.7286621523
 10
621.0677395764
 20
-549.4293916089
 10
615.389439334
 20
-552.8504808106
 10
609.7111390917
 20
-555.9854175198
 10
604.0436478166
 20
-558.8282342061
 10
598.3977539005
 20
-561.3735194066
 10
592.7842046233
 20
-563.616428026
 10
587.2136856953
 20
-565.5526905605
 10
581.6968009157
 20
-567.1786212242
 10
576.2440519882
 20
-568.4911249656
 10
570.8658185305
 20
-569.4877033594
 10
565.5723383156
 20
-570.1664593618
 10
560.3736877838
 20
-570.5261009223
 10
555.279762862
 20
-570.5659434427
 10
550.3002601258
 20
-570.2859110806
 10
545.4446583416
 20
-569.6865368934
 10
540.7222004235
 20
-568.7689618239
 10
536.1418758384
 20
-567.5349325285
 10
531.7124034946
 20
-565.986798052
 10
527.4422151444
 20
-564.1275053565
 10
523.339439334
 20
-561.9605937113
 10
519.4118859304
 20
-559.4901879557
 10
515.6670312547
 20
-556.7209906476
 10
512.1120038507
 20
-553.6582731115
 10
508.753570915
 20
-550.3078654043
 10
505.5981254156
 20
-546.6761452174
 10
502.6516739224
 20
-542.7700257366
 10
499.9198251733
 20
-538.5969424825
 10
497.4077793975
 20
-534.164839156
 10
495.1203184171
 20
-529.4821525179
 10
493.0617965441
 20
-524.5577963283
 10
491.2361322917
 20
-519.4011443791
 10
489.6468009157
 20
-514.0220126503
 10
488.2968277986
 20
-508.4306406249
 10
487.1887826911
 20
-502.6376717974
 10
486.3247748199
 20
-496.6541334132
 10
485.7064488733
 20
-490.4914154777
 10
485.3349818696
 20
-484.1612490747
 10
485.2110809176
 20
-477.6756840357
  0
ARC
  5
E4
330
1F
100
AcDbEntity
  8
0
  6
Continuous
 62
     7
370
    25
100
AcDbCircle
 10
833.6586181899
 20
-356.382242139
 30
0.0
 40
75.91213213833555
100
AcDbArc
 50
48.4133830926
 51
59.97288109
  0
ARC
  5
E5
330
1F
100
AcDbEntity
  8
0
  6
Continuous
 62
     7
370
    25
100
AcDbCircle
 10
684.6591725291
 20
-614.4577772886
 30
0.0
 40
76.08820454215946
100
AcDbArc
 50
240.0426068149
 51
252.4392447603
  0
LWPOLYLINE
  5
E6
330
1F
100
AcDbEntity
  8
0
  6
Continuous
 62
     7
370
    25
100
AcDbPolyline
 90
       18
 70
   128
 43
0.0
 10
906.93378067
 20
-331.5874991408
 10
907.7645836559
 20
-333.4930891103
 10
909.9495346537
 20
-339.0243719982
 10
911.9003913663
 20
-344.7851708437
 10
913.6141077624
 20
-350.7664908434
 10
915.0880080773
 20
-356.9589928759
 10
916.3197909907
 20
-363.3530080846
 10
917.3075332196
 20
-369.9385529737
 10
918.049692522
 20
-376.7053449965
 10
918.545110104
 20
-383.6428186107
 10
918.7930124301
 20
-390.7401417746
 10
918.7930124301
 20
-397.9862328608
 10
918.545110104
 20
-405.369777958
 10
918.049692522
 20
-412.8792485371
 10
917.3075332196
 20
-420.5029194512
 10
916.3197909907
 20
-428.2288872433
 10
915.0880080773
 20
-436.0450887316
 10
914.8581314375
 20
-437.361256875
  0
LWPOLYLINE
  5
E7
330
1F
100
AcDbEntity
  8
0
  6
Continuous
 62
     7
370
    25
100
AcDbPolyline
 90
       18
 70
   128
 43
0.0
 10
799.1131451859
 20
-641.1889017287
 10
798.8453648691
 20
-641.421737862
 10
792.7316977969
 20
-646.5834235133
 10
786.5669581771
 20
-651.4944081728
 10
780.3607715188
 20
-656.1470239209
 10
774.1228280457
 20
-660.5340062503
 10
767.8628675661
 20
-664.648505409
 10
761.5906642651
 20
-668.484097095
 10
755.3160114437
 20
-672.034792487
 10
749.0487062274
 20
-675.2950475959
 10
742.7985342692
 20
-678.2597719201
 10
736.5752544709
 20
-680.9243363947
 10
730.388583745
 20
-683.2845806185
 10
724.2481818435
 20
-685.3368193504
 10
718.163636275
 20
-687.0778482631
 10
712.1444473351
 20
-688.5049489466
 10
706.200013273
 20
-689.6158931528
 10
703.4572985533
 20
-690.025198792
  0
ARC
  5
E8
330
1F
100
AcDbEntity
  8
0
  6
Continuous
 62
     7
370
    25
100
AcDbCircle
 10
795.2469168916
 20
-457.0070583818
 30
0.0
 40
137.2051534055563
100
AcDbArc
 50
356.1726210096
 51
10.6031391797
  0
ARC
  5
E9
330
1F
100
AcDbEntity
  8
0
  6
Continuous
 62
     7
370
    25
100
AcDbCircle
 10
752.7906088502
 20
-531.2762988218
 30
0.0
 40
136.8832472441043
100
AcDbArc
 50
289.3264301028
 51
305.582387653
  0
LWPOLYLINE
  5
EA
330
1F
100
AcDbEntity
  8
0
  6
Continuous
 62
     7
370
    25
100
AcDbPolyline
 90
       69
 70
   128
 43
0.0
 10
1012.331091063
 20
-449.8144466776
 10
1012.8011534716
 20
-450.0890667081
 10
1016.4096726686
 20
-452.4265310904
 10
1019.8333831928
 20
-455.0625346419
 10
1023.064645407
 20
-457.9911954081
 10
1026.0962491018
 20
-461.2059784015
 10
1028.921429584
 20
-464.6997101842
 10
1031.5338827712
 20
-468.4645948745
 10
1033.9277792587
 20
-472.4922315425
 10
1036.0977773275
 20
-476.7736329559
 10
1038.0390348634
 20
-481.299245634
 10
1039.7472201616
 20
-486.0589711653
 10
1041.218521593
 20
-491.042188741
 10
1042.4496561085
 20
-496.2377788541
 10
1043.4378765659
 20
-501.6341481115
 10
1044.1809778587
 20
-507.2192551032
 10
1044.6773018375
 20
-512.9806372718
 10
1044.9257410094
 20
-518.9054387206
 10
1044.9257410094
 20
-524.980438901
 10
1044.6773018375
 20
-531.1920821121
 10
1044.1809778587
 20
-537.526507749
 10
1043.4378765659
 20
-543.9695812311
 10
1042.4496561085
 20
-550.5069255422
 10
1041.218521593
 20
-557.1239533109
 10
1039.7472201616
 20
-563.8058993607
 10
1038.0390348634
 20
-570.5378536574
 10
1036.0977773275
 20
-577.3047945783
 10
1033.9277792587
 20
-584.0916224325
 10
1031.5338827712
 20
-590.883193153
 10
1028.921429584
 20
-597.66435209
 10
1026.0962491018
 20
-604.4199678263
 10
1023.064645407
 20
-611.1349659416
 10
1019.8333831928
 20
-617.7943626493
 10
1016.4096726686
 20
-624.3832982315
 10
1012.8011534716
 20
-630.8870701964
 10
1009.0158776189
 20
-637.2911660856
 10
1005.0622915411
 20
-643.5812958572
 10
1000.9492172348
 20
-649.7434237719
 10
996.6858325769
 20
-655.7637997129
 10
992.2816508458
 20
-661.6289898673
 10
987.7464994931
 20
-667.3259067025
 10
983.0904982147
 20
-672.8418381693
 10
978.3240363701
 20
-678.1644760679
 10
973.4577497995
 20
-683.2819435119
 10
968.502497091
 20
-688.1828214302
 10
963.4693353511
 20
-692.8561740479
 10
958.3694955316
 20
-697.2915732879
 10
953.2143573694
 20
-701.4791220403
 10
948.0154239935
 20
-705.4094762462
 10
942.7842962571
 20
-709.0738657486
 10
937.5326468518
 20
-712.4641138616
 10
932.2721942608
 20
-715.5726556161
 10
927.0146766109
 20
-718.3925546399
 10
921.7718254796
 20
-720.9175186356
 10
916.5553397181
 20
-723.1419134213
 10
911.3768593457
 20
-725.0607755023
 10
906.2479395771
 20
-726.669823147
 10
901.1800250379
 20
-727.965465941
 10
896.1844242269
 20
-728.9448127986
 10
891.2722842831
 20
-729.605678414
 10
886.4545661114
 20
-729.9465881376
 10
881.7420199249
 20
-729.9667812665
 10
877.1451612568
 20
-729.6662127419
 10
872.6742474963
 20
-729.0455532497
 10
868.3392550003
 20
-728.106187724
 10
864.149856832
 20
-726.8502122566
 10
860.115401177
 20
-725.2804294197
 10
856.2448904833
 20
-723.4003420129
 10
854.8438906729
 20
-722.6198383275
  0
LWPOLYLINE
  5
EB
330
1F
100
AcDbEntity
  8
0
  6
Continuous
 62
     1
370
    25
100
AcDbPolyline
 90
       75
 70
   128
 43
0.0
 10
884.0454116315
 20
-299.6035238332
 10
885.6155063886
 20
-301.0328984217
 10
889.3307992585
 20
-304.7443670424
 10
892.8428379755
 20
-308.7380943768
 10
896.1461389083
 20
-313.0078446939
 10
899.2355443444
 20
-317.5469512853
 10
902.106230544
 20
-322.348326875
 10
904.7537152715
 20
-327.4044746848
 10
907.1738647936
 20
-332.7075001403
 10
909.3629003342
 20
-338.2491231966
 10
911.3174039742
 20
-344.0206912672
 10
913.0343239881
 20
-350.0131927337
 10
914.5109796091
 20
-356.2172710163
 10
915.7450652147
 20
-362.6232391834
 10
916.7346539269
 20
-369.221095076
 10
917.4782006203
 20
-376.0005369254
 10
917.9745443349
 20
-382.9509794379
 10
918.222910089
 20
-390.0615703226
 10
918.222910089
 20
-397.3212072359
 10
917.9745443349
 20
-404.7185551165
 10
917.4782006203
 20
-412.2420638839
 10
916.7346539269
 20
-419.8799864721
 10
915.7450652147
 20
-427.6203971718
 10
914.5109796091
 20
-435.4512102505
 10
913.0343239881
 20
-443.3601988231
 10
911.3174039742
 20
-451.3350139429
 10
909.3629003342
 20
-459.3632038826
 10
907.1738647936
 20
-467.4322335768
 10
904.7537152715
 20
-475.5295041933
 10
902.106230544
 20
-483.6423728053
 10
899.2355443444
 20
-491.7581721316
 10
896.1461389083
 20
-499.8642303149
 10
892.8428379755
 20
-507.9478907075
 10
889.3307992585
 20
-515.9965316334
 10
885.6155063886
 20
-523.9975860953
 10
881.7027603548
 20
-531.9385613962
 10
877.5986704454
 20
-539.807058646
 10
873.3096447097
 20
-547.5907921203
 10
868.8423799522
 20
-555.2776084432
 10
864.2038512766
 20
-562.8555055634
 10
859.4013011947
 20
-570.3126514943
 10
854.4422283184
 20
-577.6374027876
 10
849.3343756513
 20
-584.8183227138
 10
844.085718499
 20
-591.8441991187
 10
838.7044520167
 20
-598.7040619303
 10
833.1989784131
 20
-605.3872002873
 10
827.5778938317
 20
-611.8831792624
 10
821.8499749288
 20
-618.1818561555
 10
816.0241651699
 20
-624.2733963304
 10
810.1095608653
 20
-630.1482885703
 10
804.1153969676
 20
-635.7973599282
 10
798.0510326521
 20
-641.2117900498
 10
791.9259367037
 20
-646.3831249452
 10
785.7496727329
 20
-651.303290189
 10
779.5318842425
 20
-655.964603527
 10
773.2822795712
 20
-660.3597868718
 10
767.0106167348
 20
-664.4819776665
 10
760.7266881904
 20
-668.3247395993
 10
754.4403055464
 20
-671.8820726538
 10
748.1612842431
 20
-675.1484224765
 10
741.8994282269
 20
-678.1186890501
 10
735.6645146426
 20
-680.7882346558
 10
729.4662785676
 20
-683.1528911151
 10
723.3143978119
 20
-685.2089662977
 10
717.2184778069
 20
-686.9532498861
 10
711.1880366082
 20
-688.3830183886
 10
705.2324900337
 20
-689.4960393915
 10
699.3611369625
 20
-690.2905750446
 10
693.5831448154
 20
-690.7653847747
 10
687.9075352413
 20
-690.9197272228
 10
682.3431700309
 20
-690.7533614016
 10
676.8987372797
 20
-690.2665470714
 10
671.5827378234
 20
-689.4600443352
 10
666.403471964
 20
-688.3351124511
 10
661.7020729194
 20
-687.0000852747
  0
LWPOLYLINE
  5
EC
330
1F
100
AcDbEntity
  8
0
  6
Continuous
 62
     1
370
    25
100
AcDbPolyline
 90
       33
 70
   128
 43
0.0
 10
628.9568966337
 20
-544.1994913185
 10
629.3638492749
 20
-539.9860910794
 10
630.227857146
 20
-533.0049904409
 10
631.3359022535
 20
-525.9326999634
 10
632.6858753706
 20
-518.7826821538
 10
634.2752067466
 20
-511.5685474774
 10
636.100870999
 20
-504.3040284496
 10
638.1593928721
 20
-497.0029534952
 10
640.4468538525
 20
-489.6792206254
 10
642.9588996282
 20
-482.3467709819
 10
645.6907483773
 20
-475.0195622994
 10
648.6371998705
 20
-467.7115423361
 10
651.7926453699
 20
-460.4366223233
 10
655.1510783056
 20
-453.2086504848
 10
658.7061057097
 20
-446.0413856757
 10
662.4509603853
 20
-438.948471192
 10
666.3785137889
 20
-431.9434087995
 10
670.4812895993
 20
-425.0395330327
 10
674.7514779495
 20
-418.2499858115
 10
679.1809502933
 20
-411.5876914248
 10
683.7612748784
 20
-405.0653319288
 10
688.4837327966
 20
-398.6953230053
 10
693.3393345807
 20
-392.4897903285
 10
698.3188373169
 20
-386.4605464826
 10
703.4127622387
 20
-380.6190684757
 10
708.6114127705
 20
-374.9764758934
 10
713.9048929854
 20
-369.5435097313
 10
719.2831264432
 20
-364.3305119493
 10
724.7358753706
 20
-359.347405785
 10
730.2527601502
 20
-354.6036768642
 10
735.8232790783
 20
-350.1083551444
 10
741.4368283554
 20
-345.8699977261
 10
744.8610564892
 20
-343.4258433973
  0
LWPOLYLINE
  5
ED
330
1F
100
AcDbEntity
  8
0
  6
Continuous
 62
     1
370
    25
100
AcDbPolyline
 90
       29
 70
   128
 43
0.0
 10
914.8581314375
 20
-437.361256875
 10
913.6141077624
 20
-443.9393198455
 10
911.9003913663
 20
-451.89925468
 10
909.9495346537
 20
-459.912464742
 10
907.7645836559
 20
-467.9664383551
 10
905.3489499143
 20
-476.0486001955
 10
902.7064051544
 20
-484.1463309271
 10
899.841075396
 20
-492.2469869044
 10
896.7574345116
 20
-500.3379199148
 10
893.4602972402
 20
-508.4064969268
 10
889.9548116704
 20
-516.4401198153
 10
886.2464512017
 20
-524.4262450317
 10
882.3410059988
 20
-532.3524031895
 10
878.2445739507
 20
-540.2062185337
 10
873.9635511499
 20
-547.9754282639
 10
869.5046219052
 20
-555.6479016814
 10
864.8747483053
 20
-563.2116591296
 10
860.0811593484
 20
-570.6548906993
 10
855.1313396545
 20
-577.9659746679
 10
850.0330177794
 20
-585.1334956456
 10
844.7941541476
 20
-592.1462623993
 10
839.4229286228
 20
-598.9933253262
 10
833.927727736
 20
-605.6639935503
 10
828.317131591
 20
-612.1478516149
 10
822.5999004678
 20
-618.4347757455
 10
816.784961144
 20
-624.5149496563
 10
810.8813929572
 20
-630.3788798776
 10
804.8984136282
 20
-636.0174105782
 10
799.1131451859
 20
-641.1889017287
  0
LWPOLYLINE
  5
EE
330
1F
100
AcDbEntity
  8
0
  6
Continuous
 62
     1
370
    25
100
AcDbPolyline
 90
       31
 70
   128
 43
0.0
 10
932.1460596067
 20
-466.1655978344
 10
931.6631707735
 20
-472.2713889598
 10
930.9180886807
 20
-478.7316370041
 10
929.9272340374
 20
-485.2864071644
 10
928.6928178277
 20
-491.9210731852
 10
927.2175945169
 20
-498.6208305325
 10
925.5048559049
 20
-505.3707294277
 10
923.5584237815
 20
-512.1557082072
 10
921.3826413976
 20
-518.9606269301
 10
918.9823637747
 20
-525.770301162
 10
916.3629468706
 20
-532.5695358568
 10
913.5302356288
 20
-539.3431592633
 10
910.4905509356
 20
-546.0760567791
 10
907.2506755162
 20
-552.753204677
 10
903.8178387995
 20
-559.3597036293
 10
900.1997007866
 20
-565.8808119534
 10
896.4043349581
 20
-572.3019785067
 10
892.4402102593
 20
-578.6088751559
 10
888.3161722024
 20
-584.7874287485
 10
884.0414231289
 20
-590.8238525153
 10
879.6255016756
 20
-596.7046768345
 10
875.0782614899
 20
-602.4167792877
 10
870.4098492428
 20
-607.9474139406
 10
865.6306819874
 20
-613.2842397847
 10
860.7514239146
 20
-618.4153482748
 10
855.7829625572
 20
-623.3292899014
 10
850.7363844951
 20
-628.0150997394
 10
845.6229506174
 20
-632.4623219146
 10
840.4540709945
 20
-636.6610329354
 10
835.2412794181
 20
-640.6018638359
 10
832.4392746854
 20
-642.6006600675
  0
LWPOLYLINE
  5
EF
330
1F
100
AcDbEntity
  8
0
  6
Continuous
 62
     1
370
    25
100
AcDbPolyline
 90
       32
 70
   128
 43
0.0
 10
632.1634949068
 20
-541.9138422399
 10
632.2824520576
 20
-540.7797183675
 10
633.1535427026
 20
-533.7874906499
 10
634.2706311331
 20
-526.7036980572
 10
635.6315610683
 20
-519.5420142135
 10
637.2337055474
 20
-512.3162630934
 10
639.073972001
 20
-505.040392339
 10
641.1488082202
 20
-497.7284463365
 10
643.4542092133
 20
-490.3945391072
 10
645.9857249369
 20
-483.0528270634
 10
648.7384688849
 20
-475.7174816828
 10
651.7071275217
 20
-468.4026621536
 10
654.8859705382
 20
-461.1224880437
 10
658.2688619129
 20
-453.8910120462
 10
661.849271756
 20
-446.7221928535
 10
665.6202889142
 20
-439.6298682136
 10
669.5746343108
 20
-432.6277282194
 10
673.7046749961
 20
-425.7292888834
 10
678.0024388816
 20
-418.9478660476
 10
682.4596301276
 20
-412.2965496812
 10
687.067645157
 20
-405.7881786124
 10
691.8175892622
 20
-399.4353157469
 10
696.7002937742
 20
-393.2502238176
 10
701.7063337609
 20
-387.2448417146
 10
706.8260462195
 20
-381.4307614395
 10
712.0495487288
 20
-375.8192057301
 10
717.3667585249
 20
-370.4210063972
 10
722.7674119635
 20
-365.2465834167
 10
728.241084332
 20
-360.3059248157
 10
733.7772099712
 20
-355.6085673934
 10
739.3651026706
 20
-351.1635783122
 10
744.48529329
 20
-347.345698779
  0
LWPOLYLINE
  5
F0
330
1F
100
AcDbEntity
  8
0
  6
Continuous
 62
     1
370
    25
100
AcDbPolyline
 90
       47
 70
   128
 43
0.0
 10
928.4594981829
 20
-423.5370426361
 10
929.2728269471
 20
-426.4173148011
 10
930.5039614627
 20
-431.6129049142
 10
931.4921819201
 20
-437.0092741716
 10
932.2352832129
 20
-442.5943811633
 10
932.7316071917
 20
-448.3557633319
 10
932.9800463636
 20
-454.2805647807
 10
932.9800463636
 20
-460.3555649611
 10
932.7316071917
 20
-466.5672081722
 10
932.2352832129
 20
-472.9016338091
 10
931.4921819201
 20
-479.3447072912
 10
930.5039614627
 20
-485.8820516023
 10
929.2728269471
 20
-492.499079371
 10
927.8015255158
 20
-499.1810254208
 10
926.0933402176
 20
-505.9129797174
 10
924.1520826817
 20
-512.6799206384
 10
921.9820846129
 20
-519.4667484926
 10
919.5881881254
 20
-526.2583192131
 10
916.9757349382
 20
-533.0394781501
 10
914.150554456
 20
-539.7950938864
 10
911.1189507612
 20
-546.5100920016
 10
907.8876885469
 20
-553.1694887094
 10
904.4639780228
 20
-559.7584242916
 10
900.8554588258
 20
-566.2621962565
 10
897.0701829731
 20
-572.6662921457
 10
893.1165968953
 20
-578.9564219173
 10
889.003522589
 20
-585.118549832
 10
884.7401379311
 20
-591.138925773
 10
880.3359562
 20
-597.0041159274
 10
875.8008048473
 20
-602.7010327626
 10
871.1448035689
 20
-608.2169642294
 10
866.3783417243
 20
-613.539602128
 10
861.5120551537
 20
-618.657069572
 10
856.5568024452
 20
-623.5579474903
 10
851.5236407052
 20
-628.231300108
 10
846.4238008858
 20
-632.666699348
 10
841.2686627236
 20
-636.8542481003
 10
836.0697293477
 20
-640.7846023063
 10
830.8386016113
 20
-644.4489918087
 10
825.586952206
 20
-647.8392399217
 10
820.326499615
 20
-650.9477816762
 10
815.068981965
 20
-653.7676807
 10
809.8261308338
 20
-656.2926446957
 10
804.6096450723
 20
-658.5170394813
 10
799.4311646999
 20
-660.4359015623
 10
794.3022449313
 20
-662.0449492071
 10
790.1456120534
 20
-663.1296811662
  0
ENDSEC
  0
SECTION
  2
OBJECTS
  0
DICTIONARY
  5
C
330
0
100
AcDbDictionary
281
     1
  3
ACAD_GROUP
350
D
  3
ACAD_LAYOUT
350
1A
  3
ACAD_MLINESTYLE
350
17
  3
ACAD_PLOTSETTINGS
350
19
  3
ACAD_PLOTSTYLENAME
350
E
  3
ACAD_SCALELIST
350
47
  3
DWGPROPS
350
F1
  0
DICTIONARY
  5
D
102
{ACAD_REACTORS
330
C
102
}
330
C
100
AcDbDictionary
281
     1
  0
DICTIONARY
  5
1A
102
{ACAD_REACTORS
330
C
102
}
330
C
100
AcDbDictionary
281
     1
  3
Layout1
350
1E
  3
Layout2
350
26
  3
Model
350
22
  0
DICTIONARY
  5
17
102
{ACAD_REACTORS
330
C
102
}
330
C
100
AcDbDictionary
281
     1
  3
Standard
350
18
  0
DICTIONARY
  5
19
102
{ACAD_REACTORS
330
C
102
}
330
C
100
AcDbDictionary
281
     1
  0
ACDBDICTIONARYWDFLT
  5
E
102
{ACAD_REACTORS
330
C
102
}
330
C
100
AcDbDictionary
281
     1
  3
Normal
350
F
100
AcDbDictionaryWithDefault
340
F
  0
DICTIONARY
  5
47
102
{ACAD_REACTORS
330
C
102
}
330
C
100
AcDbDictionary
281
     1
  3
A0
350
48
  3
A1
350
49
  3
A2
350
4A
  3
A3
350
4B
  3
A4
350
4C
  3
A5
350
4D
  3
A6
350
4E
  3
A7
350
4F
  3
A8
350
50
  3
A9
350
51
  3
B0
350
52
  3
B1
350
53
  3
B2
350
54
  3
B3
350
55
  3
B4
350
56
  3
B5
350
57
  3
B6
350
58
  3
B7
350
59
  3
B8
350
5A
  3
B9
350
5B
  3
C0
350
5C
  3
C1
350
5D
  3
C2
350
5E
  3
C3
350
5F
  3
C4
350
60
  3
C5
350
61
  3
C6
350
62
  3
C7
350
63
  3
C8
350
64
  3
C9
350
65
  3
D0
350
66
  3
D1
350
67
  3
D2
350
68
  0
XRECORD
  5
F1
102
{ACAD_REACTORS
330
C
102
}
330
C
100
AcDbXrecord
280
     1
  1
DWGPROPS COOKIE
  2

  3

  4

  6

  7

  8
b.kav
  9

300
=
301
=
302
=
303
=
304
=
305
=
306
=
307
=
308
=
309
=
 40
0.0
 41
2460731.531050104
 42
2460731.531050174
  1

 90
        0
  0
LAYOUT
  5
1E
102
{ACAD_REACTORS
330
1A
102
}
330
1A
100
AcDbPlotSettings
  1

  2
none_device
  4

  6

 40
0.0
 41
0.0
 42
0.0
 43
0.0
 44
0.0
 45
0.0
 46
0.0
 47
0.0
 48
0.0
 49
0.0
140
0.0
141
0.0
142
1.0
143
1.0
 70
   688
 72
     1
 73
     0
 74
     5
  7

 75
    16
147
1.0
148
0.0
149
0.0
100
AcDbLayout
  1
Layout1
 70
     1
 71
     1
 10
0.0
 20
0.0
 11
420.0
 21
297.0
 12
0.0
 22
0.0
 32
0.0
 14
1.0000000000E+20
 24
1.0000000000E+20
 34
1.0000000000E+20
 15
-1.0000000000E+20
 25
-1.0000000000E+20
 35
-1.0000000000E+20
146
0.0
 13
0.0
 23
0.0
 33
0.0
 16
1.0
 26
0.0
 36
0.0
 17
0.0
 27
1.0
 37
0.0
 76
     0
330
1B
  0
LAYOUT
  5
26
102
{ACAD_REACTORS
330
1A
102
}
330
1A
100
AcDbPlotSettings
  1

  2
none_device
  4

  6

 40
0.0
 41
0.0
 42
0.0
 43
0.0
 44
0.0
 45
0.0
 46
0.0
 47
0.0
 48
0.0
 49
0.0
140
0.0
141
0.0
142
1.0
143
1.0
 70
   688
 72
     1
 73
     0
 74
     5
  7

 75
    16
147
1.0
148
0.0
149
0.0
100
AcDbLayout
  1
Layout2
 70
     1
 71
     2
 10
0.0
 20
0.0
 11
0.0
 21
0.0
 12
0.0
 22
0.0
 32
0.0
 14
0.0
 24
0.0
 34
0.0
 15
0.0
 25
0.0
 35
0.0
146
0.0
 13
0.0
 23
0.0
 33
0.0
 16
1.0
 26
0.0
 36
0.0
 17
0.0
 27
1.0
 37
0.0
 76
     0
330
23
  0
LAYOUT
  5
22
102
{ACAD_REACTORS
330
1A
102
}
330
1A
100
AcDbPlotSettings
  1

  2
none_device
  4
Letter_(8.50_x_11.00_Inches)
  6

 40
6.35
 41
6.35
 42
6.35000508
 43
6.35000508
 44
215.9
 45
279.4
 46
0.0
 47
0.0
 48
0.0
 49
0.0
140
0.0
141
0.0
142
1.0
143
1.0
 70
  1712
 72
     1
 73
     0
 74
     0
  7

 75
     0
147
1.0
148
0.0
149
0.0
100
AcDbLayout
  1
Model
 70
     1
 71
     0
 10
0.0
 20
0.0
 11
279.4
 21
215.9
 12
0.0
 22
0.0
 32
0.0
 14
0.0
 24
0.0
 34
0.0
 15
279.4
 25
215.9
 35
0.0
146
0.0
 13
0.0
 23
0.0
 33
0.0
 16
1.0
 26
0.0
 36
0.0
 17
0.0
 27
1.0
 37
0.0
 76
     0
330
1F
331
29
  0
MLINESTYLE
  5
18
102
{ACAD_REACTORS
330
17
102
}
330
17
100
AcDbMlineStyle
  2
Standard
 70
     0
  3

 62
   256
 51
90.0
 52
90.0
 71
     2
 49
0.5
 62
   256
  6
BYLAYER
 49
-0.5
 62
   256
  6
BYLAYER
  0
ACDBPLACEHOLDER
  5
F
102
{ACAD_REACTORS
330
E
102
}
330
E
  0
SCALE
  5
48
102
{ACAD_REACTORS
330
47
102
}
330
47
100
AcDbScale
 70
     0
300
1:1
140
1.0
141
1.0
290
     1
  0
SCALE
  5
49
102
{ACAD_REACTORS
330
47
102
}
330
47
100
AcDbScale
 70
     0
300
1:2
140
1.0
141
2.0
290
     0
  0
SCALE
  5
4A
102
{ACAD_REACTORS
330
47
102
}
330
47
100
AcDbScale
 70
     0
300
1:4
140
1.0
141
4.0
290
     0
  0
SCALE
  5
4B
102
{ACAD_REACTORS
330
47
102
}
330
47
100
AcDbScale
 70
     0
300
1:5
140
1.0
141
5.0
290
     0
  0
SCALE
  5
4C
102
{ACAD_REACTORS
330
47
102
}
330
47
100
AcDbScale
 70
     0
300
1:8
140
1.0
141
8.0
290
     0
  0
SCALE
  5
4D
102
{ACAD_REACTORS
330
47
102
}
330
47
100
AcDbScale
 70
     0
300
1:10
140
1.0
141
10.0
290
     0
  0
SCALE
  5
4E
102
{ACAD_REACTORS
330
47
102
}
330
47
100
AcDbScale
 70
     0
300
1:16
140
1.0
141
16.0
290
     0
  0
SCALE
  5
4F
102
{ACAD_REACTORS
330
47
102
}
330
47
100
AcDbScale
 70
     0
300
1:20
140
1.0
141
20.0
290
     0
  0
SCALE
  5
50
102
{ACAD_REACTORS
330
47
102
}
330
47
100
AcDbScale
 70
     0
300
1:30
140
1.0
141
30.0
290
     0
  0
SCALE
  5
51
102
{ACAD_REACTORS
330
47
102
}
330
47
100
AcDbScale
 70
     0
300
1:40
140
1.0
141
40.0
290
     0
  0
SCALE
  5
52
102
{ACAD_REACTORS
330
47
102
}
330
47
100
AcDbScale
 70
     0
300
1:50
140
1.0
141
50.0
290
     0
  0
SCALE
  5
53
102
{ACAD_REACTORS
330
47
102
}
330
47
100
AcDbScale
 70
     0
300
1:100
140
1.0
141
100.0
290
     0
  0
SCALE
  5
54
102
{ACAD_REACTORS
330
47
102
}
330
47
100
AcDbScale
 70
     0
300
2:1
140
2.0
141
1.0
290
     0
  0
SCALE
  5
55
102
{ACAD_REACTORS
330
47
102
}
330
47
100
AcDbScale
 70
     0
300
4:1
140
4.0
141
1.0
290
     0
  0
SCALE
  5
56
102
{ACAD_REACTORS
330
47
102
}
330
47
100
AcDbScale
 70
     0
300
8:1
140
8.0
141
1.0
290
     0
  0
SCALE
  5
57
102
{ACAD_REACTORS
330
47
102
}
330
47
100
AcDbScale
 70
     0
300
10:1
140
10.0
141
1.0
290
     0
  0
SCALE
  5
58
102
{ACAD_REACTORS
330
47
102
}
330
47
100
AcDbScale
 70
     0
300
100:1
140
100.0
141
1.0
290
     0
  0
SCALE
  5
59
102
{ACAD_REACTORS
330
47
102
}
330
47
100
AcDbScale
 70
     0
300
1/128" = 1'-0"
140
0.0078125
141
12.0
290
     0
  0
SCALE
  5
5A
102
{ACAD_REACTORS
330
47
102
}
330
47
100
AcDbScale
 70
     0
300
1/64" = 1'-0"
140
0.015625
141
12.0
290
     0
  0
SCALE
  5
5B
102
{ACAD_REACTORS
330
47
102
}
330
47
100
AcDbScale
 70
     0
300
1/32" = 1'-0"
140
0.03125
141
12.0
290
     0
  0
SCALE
  5
5C
102
{ACAD_REACTORS
330
47
102
}
330
47
100
AcDbScale
 70
     0
300
1/16" = 1'-0"
140
0.0625
141
12.0
290
     0
  0
SCALE
  5
5D
102
{ACAD_REACTORS
330
47
102
}
330
47
100
AcDbScale
 70
     0
300
3/32" = 1'-0"
140
0.09375
141
12.0
290
     0
  0
SCALE
  5
5E
102
{ACAD_REACTORS
330
47
102
}
330
47
100
AcDbScale
 70
     0
300
1/8" = 1'-0"
140
0.125
141
12.0
290
     0
  0
SCALE
  5
5F
102
{ACAD_REACTORS
330
47
102
}
330
47
100
AcDbScale
 70
     0
300
3/16" = 1'-0"
140
0.1875
141
12.0
290
     0
  0
SCALE
  5
60
102
{ACAD_REACTORS
330
47
102
}
330
47
100
AcDbScale
 70
     0
300
1/4" = 1'-0"
140
0.25
141
12.0
290
     0
  0
SCALE
  5
61
102
{ACAD_REACTORS
330
47
102
}
330
47
100
AcDbScale
 70
     0
300
3/8" = 1'-0"
140
0.375
141
12.0
290
     0
  0
SCALE
  5
62
102
{ACAD_REACTORS
330
47
102
}
330
47
100
AcDbScale
 70
     0
300
1/2" = 1'-0"
140
0.5
141
12.0
290
     0
  0
SCALE
  5
63
102
{ACAD_REACTORS
330
47
102
}
330
47
100
AcDbScale
 70
     0
300
3/4" = 1'-0"
140
0.75
141
12.0
290
     0
  0
SCALE
  5
64
102
{ACAD_REACTORS
330
47
102
}
330
47
100
AcDbScale
 70
     0
300
1" = 1'-0"
140
1.0
141
12.0
290
     0
  0
SCALE
  5
65
102
{ACAD_REACTORS
330
47
102
}
330
47
100
AcDbScale
 70
     0
300
1-1/2" = 1'-0"
140
1.5
141
12.0
290
     0
  0
SCALE
  5
66
102
{ACAD_REACTORS
330
47
102
}
330
47
100
AcDbScale
 70
     0
300
3" = 1'-0"
140
3.0
141
12.0
290
     0
  0
SCALE
  5
67
102
{ACAD_REACTORS
330
47
102
}
330
47
100
AcDbScale
 70
     0
300
6" = 1'-0"
140
6.0
141
12.0
290
     0
  0
SCALE
  5
68
102
{ACAD_REACTORS
330
47
102
}
330
47
100
AcDbScale
 70
     0
300
1'-0" = 1'-0"
140
12.0
141
12.0
290
     0
  0
ENDSEC
  0
EOF
